  0
SECTION
  2
HEADER
  9
$ACADVER
  1
AC1015
  9
$ACADMAINTVER
 70
     6
  9
$DWGCODEPAGE
  3
ANSI_1254
  9
$INSBASE
 10
0.0
 20
0.0
 30
0.0
  9
$EXTMIN
 10
0.0
 20
0.0
 30
0.0
  9
$EXTMAX
 10
279.4
 20
215.9
 30
0.0
  9
$LIMMIN
 10
0.0
 20
0.0
  9
$LIMMAX
 10
279.4
 20
215.9
  9
$ORTHOMODE
 70
     0
  9
$REGENMODE
 70
     1
  9
$FILLMODE
 70
     1
  9
$QTEXTMODE
 70
     0
  9
$MIRRTEXT
 70
     1
  9
$LTSCALE
 40
1.0
  9
$ATTMODE
 70
     1
  9
$TEXTSIZE
 40
3.5
  9
$TRACEWID
 40
1.0
  9
$TEXTSTYLE
  7
Standard
  9
$CLAYER
  8
0
  9
$CELTYPE
  6
ByLayer
  9
$CECOLOR
 62
   256
  9
$CELTSCALE
 40
1.0
  9
$DISPSILH
 70
     0
  9
$DIMSCALE
 40
1.0
  9
$DIMASZ
 40
3.5
  9
$DIMEXO
 40
1.0
  9
$DIMDLI
 40
3.75
  9
$DIMRND
 40
0.0
  9
$DIMDLE
 40
0.0
  9
$DIMEXE
 40
1.0
  9
$DIMTP
 40
0.0
  9
$DIMTM
 40
0.0
  9
$DIMTXT
 40
3.5
  9
$DIMCEN
 40
2.5
  9
$DIMTSZ
 40
0.0
  9
$DIMTOL
 70
     0
  9
$DIMLIM
 70
     0
  9
$DIMTIH
 70
     1
  9
$DIMTOH
 70
     1
  9
$DIMSE1
 70
     0
  9
$DIMSE2
 70
     0
  9
$DIMTAD
 70
     1
  9
$DIMZIN
 70
     0
  9
$DIMBLK
  1

  9
$DIMASO
 70
     1
  9
$DIMSHO
 70
     1
  9
$DIMPOST
  1

  9
$DIMAPOST
  1

  9
$DIMALT
 70
     0
  9
$DIMALTD
 70
     3
  9
$DIMALTF
 40
0.0393700787
  9
$DIMLFAC
 40
1.0
  9
$DIMTOFL
 70
     1
  9
$DIMTVP
 40
0.0
  9
$DIMTIX
 70
     0
  9
$DIMSOXD
 70
     0
  9
$DIMSAH
 70
     0
  9
$DIMBLK1
  1

  9
$DIMBLK2
  1

  9
$DIMSTYLE
  2
ISO-25
  9
$DIMCLRD
 70
     0
  9
$DIMCLRE
 70
     0
  9
$DIMCLRT
 70
     0
  9
$DIMTFAC
 40
1.0
  9
$DIMGAP
 40
1.524
  9
$DIMJUST
 70
     0
  9
$DIMSD1
 70
     0
  9
$DIMSD2
 70
     0
  9
$DIMTOLJ
 70
     0
  9
$DIMTZIN
 70
     0
  9
$DIMALTZ
 70
     0
  9
$DIMALTTZ
 70
     0
  9
$DIMUPT
 70
     0
  9
$DIMDEC
 70
     2
  9
$DIMTDEC
 70
     2
  9
$DIMALTU
 70
     2
  9
$DIMALTTD
 70
     3
  9
$DIMTXSTY
  7
Standard
  9
$DIMAUNIT
 70
     0
  9
$DIMADEC
 70
     2
  9
$DIMALTRND
 40
0.0
  9
$DIMAZIN
 70
     0
  9
$DIMDSEP
 70
    44
  9
$DIMATFIT
 70
     3
  9
$DIMFRAC
 70
     0
  9
$DIMLDRBLK
  1

  9
$DIMLUNIT
 70
     2
  9
$DIMLWD
 70
    -2
  9
$DIMLWE
 70
    -2
  9
$DIMTMOVE
 70
     0
  9
$LUNITS
 70
     2
  9
$LUPREC
 70
     2
  9
$SKETCHINC
 40
1.0
  9
$FILLETRAD
 40
10.0
  9
$AUNITS
 70
     0
  9
$AUPREC
 70
     2
  9
$MENU
  1
.
  9
$ELEVATION
 40
0.0
  9
$PELEVATION
 40
0.0
  9
$THICKNESS
 40
0.0
  9
$LIMCHECK
 70
     0
  9
$CHAMFERA
 40
0.0
  9
$CHAMFERB
 40
0.0
  9
$CHAMFERC
 40
0.0
  9
$CHAMFERD
 40
0.0
  9
$SKPOLY
 70
     0
  9
$TDCREATE
 40
2460682.519570868
  9
$TDUCREATE
 40
2460682.394570868
  9
$TDUPDATE
 40
2460682.51957103
  9
$TDUUPDATE
 40
2460682.39457103
  9
$TDINDWG
 40
0.0000000116
  9
$TDUSRTIMER
 40
0.0000000116
  9
$USRTIMER
 70
     1
  9
$ANGBASE
 50
0.0
  9
$ANGDIR
 70
     0
  9
$PDMODE
 70
     0
  9
$PDSIZE
 40
-1.0
  9
$PLINEWID
 40
0.0
  9
$SPLFRAME
 70
     0
  9
$SPLINETYPE
 70
     6
  9
$SPLINESEGS
 70
     8
  9
$HANDSEED
  5
BF
  9
$SURFTAB1
 70
     6
  9
$SURFTAB2
 70
     6
  9
$SURFTYPE
 70
     6
  9
$SURFU
 70
     6
  9
$SURFV
 70
     6
  9
$UCSBASE
  2

  9
$UCSNAME
  2

  9
$UCSORG
 10
0.0
 20
0.0
 30
0.0
  9
$UCSXDIR
 10
1.0
 20
0.0
 30
0.0
  9
$UCSYDIR
 10
0.0
 20
1.0
 30
0.0
  9
$UCSORTHOREF
  2

  9
$UCSORTHOVIEW
 70
     0
  9
$UCSORGTOP
 10
0.0
 20
0.0
 30
0.0
  9
$UCSORGBOTTOM
 10
0.0
 20
0.0
 30
0.0
  9
$UCSORGLEFT
 10
0.0
 20
0.0
 30
0.0
  9
$UCSORGRIGHT
 10
0.0
 20
0.0
 30
0.0
  9
$UCSORGFRONT
 10
0.0
 20
0.0
 30
0.0
  9
$UCSORGBACK
 10
0.0
 20
0.0
 30
0.0
  9
$PUCSBASE
  2

  9
$PUCSNAME
  2

  9
$PUCSORG
 10
0.0
 20
0.0
 30
0.0
  9
$PUCSXDIR
 10
1.0
 20
0.0
 30
0.0
  9
$PUCSYDIR
 10
0.0
 20
1.0
 30
0.0
  9
$PUCSORTHOREF
  2

  9
$PUCSORTHOVIEW
 70
     0
  9
$PUCSORGTOP
 10
0.0
 20
0.0
 30
0.0
  9
$PUCSORGBOTTOM
 10
0.0
 20
0.0
 30
0.0
  9
$PUCSORGLEFT
 10
0.0
 20
0.0
 30
0.0
  9
$PUCSORGRIGHT
 10
0.0
 20
0.0
 30
0.0
  9
$PUCSORGFRONT
 10
0.0
 20
0.0
 30
0.0
  9
$PUCSORGBACK
 10
0.0
 20
0.0
 30
0.0
  9
$USERI1
 70
     0
  9
$USERI2
 70
     0
  9
$USERI3
 70
     0
  9
$USERI4
 70
     0
  9
$USERI5
 70
     0
  9
$USERR1
 40
0.0
  9
$USERR2
 40
0.0
  9
$USERR3
 40
0.0
  9
$USERR4
 40
0.0
  9
$USERR5
 40
0.0
  9
$WORLDVIEW
 70
     1
  9
$SHADEDGE
 70
     3
  9
$SHADEDIF
 70
    70
  9
$TILEMODE
 70
     1
  9
$MAXACTVP
 70
    64
  9
$PINSBASE
 10
0.0
 20
0.0
 30
0.0
  9
$PLIMCHECK
 70
     0
  9
$PEXTMIN
 10
1.0000000000E+20
 20
1.0000000000E+20
 30
1.0000000000E+20
  9
$PEXTMAX
 10
-1.0000000000E+20
 20
-1.0000000000E+20
 30
-1.0000000000E+20
  9
$PLIMMIN
 10
0.0
 20
0.0
  9
$PLIMMAX
 10
420.0
 20
297.0
  9
$UNITMODE
 70
     0
  9
$VISRETAIN
 70
     1
  9
$PLINEGEN
 70
     0
  9
$PSLTSCALE
 70
     1
  9
$TREEDEPTH
 70
  3020
  9
$CMLSTYLE
  2
Standard
  9
$CMLJUST
 70
     0
  9
$CMLSCALE
 40
20.0
  9
$PROXYGRAPHICS
 70
     1
  9
$MEASUREMENT
 70
     1
  9
$CELWEIGHT
370
    -1
  9
$ENDCAPS
280
     0
  9
$JOINSTYLE
280
     0
  9
$LWDISPLAY
290
     1
  9
$INSUNITS
 70
     4
  9
$HYPERLINKBASE
  1

  9
$STYLESHEET
  1

  9
$XEDIT
290
     1
  9
$CEPSNTYPE
380
     0
  9
$PSTYLEMODE
290
     1
  9
$FINGERPRINTGUID
  2
{d27e6f4e-e23b-49a3-9950-a7d7834039a5}
  9
$VERSIONGUID
  2
{FAEB1C32-E019-11D5-929B-00C0DF256EC4}
  9
$EXTNAMES
290
     1
  9
$PSVPSCALE
 40
0.0
  9
$OLESTARTUP
290
     0
  0
ENDSEC
  0
SECTION
  2
CLASSES
  0
CLASS
  1
ACDBDICTIONARYWDFLT
  2
AcDbDictionaryWithDefault
  3
ObjectDBX Classes
 90
        0
280
     0
281
     0
  0
CLASS
  1
VISUALSTYLE
  2
AcDbVisualStyle
  3
ObjectDBX Classes
 90
     4095
280
     0
281
     0
  0
CLASS
  1
MATERIAL
  2
AcDbMaterial
  3
ObjectDBX Classes
 90
     1153
280
     0
281
     0
  0
CLASS
  1
SCALE
  2
AcDbScale
  3
ObjectDBX Classes
 90
     1153
280
     0
281
     0
  0
CLASS
  1
TABLESTYLE
  2
AcDbTableStyle
  3
ObjectDBX Classes
 90
     4095
280
     0
281
     0
  0
CLASS
  1
MLEADERSTYLE
  2
AcDbMLeaderStyle
  3
ACDB_MLEADERSTYLE_CLASS
 90
     4095
280
     0
281
     0
  0
CLASS
  1
SUN
  2
AcDbSun
  3
SCENEOE
 90
     1153
280
     0
281
     0
  0
CLASS
  1
ACDBPLACEHOLDER
  2
AcDbPlaceHolder
  3
ObjectDBX Classes
 90
        0
280
     0
281
     0
  0
CLASS
  1
LAYOUT
  2
AcDbLayout
  3
ObjectDBX Classes
 90
        0
280
     0
281
     0
  0
ENDSEC
  0
SECTION
  2
TABLES
  0
TABLE
  2
VPORT
  5
8
330
0
100
AcDbSymbolTable
 70
     1
  0
VPORT
  5
29
330
8
100
AcDbSymbolTableRecord
100
AcDbViewportTableRecord
  2
*Active
 70
     0
 10
0.0
 20
0.0
 11
1.0
 21
1.0
 12
139.7
 22
107.95
 13
0.0
 23
0.0
 14
10.0
 24
10.0
 15
10.0
 25
10.0
 16
0.0
 26
0.0
 36
1.0
 17
0.0
 27
0.0
 37
0.0
 40
215.9
 41
1.2941176471
 42
50.0
 43
0.0
 44
0.0
 50
0.0
 51
0.0
 71
     0
 72
  2000
 73
     1
 74
     3
 75
     0
 76
     0
 77
     0
 78
     0
281
     0
 65
     1
110
0.0
120
0.0
130
0.0
111
1.0
121
0.0
131
0.0
112
0.0
122
1.0
132
0.0
 79
     0
146
0.0
  0
ENDTAB
  0
TABLE
  2
LTYPE
  5
5
330
0
100
AcDbSymbolTable
 70
     6
  0
LTYPE
  5
14
330
5
100
AcDbSymbolTableRecord
100
AcDbLinetypeTableRecord
  2
ByBlock
 70
     0
  3

 72
    65
 73
     0
 40
0.0
  0
LTYPE
  5
15
330
5
100
AcDbSymbolTableRecord
100
AcDbLinetypeTableRecord
  2
ByLayer
 70
     0
  3

 72
    65
 73
     0
 40
0.0
  0
LTYPE
  5
16
330
5
100
AcDbSymbolTableRecord
100
AcDbLinetypeTableRecord
  2
Continuous
 70
     0
  3
Solid line
 72
    65
 73
     0
 40
0.0
  0
LTYPE
  5
6E
330
5
100
AcDbSymbolTableRecord
100
AcDbLinetypeTableRecord
  2
HIDDEN
 70
     0
  3
Hidden __ __ __ __ __ __ __ __ __ __ __ __ __ __
 72
    65
 73
     2
 40
1.905
 49
1.27
 74
     0
 49
-0.635
 74
     0
  0
LTYPE
  5
6F
330
5
100
AcDbSymbolTableRecord
100
AcDbLinetypeTableRecord
  2
PHANTOM
 70
     0
  3
Phantom ______  __  __  ______  __  __  ______
 72
    65
 73
     6
 40
12.7
 49
6.35
 74
     0
 49
-1.27
 74
     0
 49
1.27
 74
     0
 49
-1.27
 74
     0
 49
1.27
 74
     0
 49
-1.27
 74
     0
  0
LTYPE
  5
70
330
5
100
AcDbSymbolTableRecord
100
AcDbLinetypeTableRecord
  2
CENTER
 70
     0
  3
Center ____ _ ____ _ ____ _ ____ _ ____ _ ____
 72
    65
 73
     4
 40
10.16
 49
6.35
 74
     0
 49
-1.27
 74
     0
 49
1.27
 74
     0
 49
-1.27
 74
     0
  0
LTYPE
  5
71
330
5
100
AcDbSymbolTableRecord
100
AcDbLinetypeTableRecord
  2
CENTERX2
 70
     0
  3
Center (2x) ________  __  ________  __  _____
 72
    65
 73
     4
 40
20.32
 49
12.7
 74
     0
 49
-2.54
 74
     0
 49
2.54
 74
     0
 49
-2.54
 74
     0
  0
LTYPE
  5
72
330
5
100
AcDbSymbolTableRecord
100
AcDbLinetypeTableRecord
  2
DOT2
 70
     0
  3
Dot (.5x) ........................................
 72
    65
 73
     2
 40
0.635
 49
0.0
 74
     0
 49
-0.635
 74
     0
  0
ENDTAB
  0
TABLE
  2
LAYER
  5
2
330
0
100
AcDbSymbolTable
 70
    17
  0
LAYER
  5
10
330
2
100
AcDbSymbolTableRecord
100
AcDbLayerTableRecord
  2
0
 70
     0
 62
     7
  6
Continuous
370
    -3
390
F
  0
LAYER
  5
73
330
2
100
AcDbSymbolTableRecord
100
AcDbLayerTableRecord
  2
FORMAT
 70
     0
 62
     7
  6
Continuous
370
    -3
390
F
  0
LAYER
  5
74
330
2
100
AcDbSymbolTableRecord
100
AcDbLayerTableRecord
  2
YARDIMCI_GEOMETRI
 70
     0
 62
    -6
  6
Continuous
290
     0
370
    -3
390
F
  0
LAYER
  5
75
330
2
100
AcDbSymbolTableRecord
100
AcDbLayerTableRecord
  2
SAYFA_CERCEVESI
 70
     0
 62
     7
  6
Continuous
370
    25
390
F
  0
LAYER
  5
76
330
2
100
AcDbSymbolTableRecord
100
AcDbLayerTableRecord
  2
ANTET
 70
     0
 62
     7
  6
Continuous
370
    -3
390
F
  0
LAYER
  5
77
330
2
100
AcDbSymbolTableRecord
100
AcDbLayerTableRecord
  2
OLCU
 70
     0
 62
   150
  6
Continuous
370
    -3
390
F
  0
LAYER
  5
78
330
2
100
AcDbSymbolTableRecord
100
AcDbLayerTableRecord
  2
METIN
 70
     0
 62
    96
  6
Continuous
370
    -3
390
F
  0
LAYER
  5
79
330
2
100
AcDbSymbolTableRecord
100
AcDbLayerTableRecord
  2
BALON
 70
     0
 62
     5
  6
Continuous
370
    -3
390
F
  0
LAYER
  5
7A
330
2
100
AcDbSymbolTableRecord
100
AcDbLayerTableRecord
  2
VURGU
 70
     0
 62
     7
  6
Continuous
370
    -3
390
F
  0
LAYER
  5
7B
330
2
100
AcDbSymbolTableRecord
100
AcDbLayerTableRecord
  2
SILIK
 70
     0
 62
     7
  6
Continuous
370
    -3
390
F
  0
LAYER
  5
7C
330
2
100
AcDbSymbolTableRecord
100
AcDbLayerTableRecord
  2
MODEL
 70
     0
 62
     7
  6
Continuous
370
    -3
390
F
  0
LAYER
  5
7D
330
2
100
AcDbSymbolTableRecord
100
AcDbLayerTableRecord
  2
DETAYLANDıRMA
 70
     0
 62
   190
  6
Continuous
370
    -3
390
F
  0
LAYER
  5
7E
330
2
100
AcDbSymbolTableRecord
100
AcDbLayerTableRecord
  2
TOLERANS
 70
     0
 62
   230
  6
Continuous
370
    -3
390
F
  0
LAYER
  5
7F
330
2
100
AcDbSymbolTableRecord
100
AcDbLayerTableRecord
  2
MERKEZ_CIZGILERI
 70
     0
 62
    30
  6
Continuous
370
    -3
390
F
  0
LAYER
  5
80
330
2
100
AcDbSymbolTableRecord
100
AcDbLayerTableRecord
  2
KESIT-DETAY_CIZGILERI
 70
     0
 62
     7
  6
Continuous
370
    -3
390
F
  0
LAYER
  5
81
330
2
100
AcDbSymbolTableRecord
100
AcDbLayerTableRecord
  2
\U+041E\U+0421\U+0415\U+0412\U+042B\U+0415
 70
     0
 62
     7
  6
Continuous
370
    -3
390
F
  0
LAYER
  5
82
330
2
100
AcDbSymbolTableRecord
100
AcDbLayerTableRecord
  2
\U+0412\U+041E\U+0414\U+042F\U+041D\U+042B\U+0415_\U+0417\U+041D\U+0410\U+041A\U+0418
 70
     0
 62
    11
  6
Continuous
370
    -3
390
F
  0
ENDTAB
  0
TABLE
  2
STYLE
  5
3
330
0
100
AcDbSymbolTable
 70
     1
  0
STYLE
  5
11
330
3
100
AcDbSymbolTableRecord
100
AcDbTextStyleTableRecord
  2
Standard
 70
     0
 40
0.0
 41
1.0
 50
0.0
 71
     0
 42
3.5
  3
txt
  4

  0
ENDTAB
  0
TABLE
  2
VIEW
  5
6
330
0
100
AcDbSymbolTable
 70
     0
  0
ENDTAB
  0
TABLE
  2
UCS
  5
7
330
0
100
AcDbSymbolTable
 70
     0
  0
ENDTAB
  0
TABLE
  2
APPID
  5
9
330
0
100
AcDbSymbolTable
 70
     1
  0
APPID
  5
12
330
9
100
AcDbSymbolTableRecord
100
AcDbRegAppTableRecord
  2
ACAD
 70
     0
  0
ENDTAB
  0
TABLE
  2
DIMSTYLE
  5
A
330
0
100
AcDbSymbolTable
 70
     1
100
AcDbDimStyleTable
  0
DIMSTYLE
105
27
330
A
100
AcDbSymbolTableRecord
100
AcDbDimStyleTableRecord
  2
ISO-25
 70
     0
 41
2.5
 42
0.625
 43
3.75
 44
1.25
 73
     0
 74
     0
 77
     1
 78
     8
140
2.5
141
2.5
143
0.0393700787
147
0.625
171
     3
172
     1
178
     0
271
     2
272
     2
274
     3
278
    44
283
     0
284
     8
340
11
  0
ENDTAB
  0
TABLE
  2
BLOCK_RECORD
  5
1
330
0
100
AcDbSymbolTable
 70
     2
  0
BLOCK_RECORD
  5
1F
330
1
100
AcDbSymbolTableRecord
100
AcDbBlockTableRecord
  2
*Model_Space
340
22
  0
BLOCK_RECORD
  5
1B
330
1
100
AcDbSymbolTableRecord
100
AcDbBlockTableRecord
  2
*Paper_Space
340
1E
  0
BLOCK_RECORD
  5
23
330
1
100
AcDbSymbolTableRecord
100
AcDbBlockTableRecord
  2
*Paper_Space0
340
26
  0
BLOCK_RECORD
  5
A2
330
1
100
AcDbSymbolTableRecord
100
AcDbBlockTableRecord
  2
SW_CENTERMARKSYMBOL_0
340
0
102
{BLKREFS
331
AD
102
}
  0
ENDTAB
  0
ENDSEC
  0
SECTION
  2
BLOCKS
  0
BLOCK
  5
20
330
1F
100
AcDbEntity
  8
0
100
AcDbBlockBegin
  2
*Model_Space
 70
     0
 10
0.0
 20
0.0
 30
0.0
  3
*Model_Space
  1

  0
ENDBLK
  5
21
330
1F
100
AcDbEntity
  8
0
100
AcDbBlockEnd
  0
BLOCK
  5
1C
330
1B
100
AcDbEntity
 67
     1
  8
0
100
AcDbBlockBegin
  2
*Paper_Space
 70
     0
 10
0.0
 20
0.0
 30
0.0
  3
*Paper_Space
  1

  0
ENDBLK
  5
1D
330
1B
100
AcDbEntity
 67
     1
  8
0
100
AcDbBlockEnd
  0
BLOCK
  5
24
330
23
100
AcDbEntity
  8
0
100
AcDbBlockBegin
  2
*Paper_Space0
 70
     0
 10
0.0
 20
0.0
 30
0.0
  3
*Paper_Space0
  1

  0
ENDBLK
  5
25
330
23
100
AcDbEntity
  8
0
100
AcDbBlockEnd
  0
BLOCK
  5
A3
330
A2
100
AcDbEntity
  8
0
100
AcDbBlockBegin
  2
SW_CENTERMARKSYMBOL_0
 70
     0
 10
0.0
 20
0.0
 30
0.0
  3
SW_CENTERMARKSYMBOL_0
  1

  0
LINE
  5
A5
330
A2
100
AcDbEntity
  8
FORMAT
 62
     0
100
AcDbLine
 10
0.0
 20
0.0
 30
0.0
 11
0.0
 21
2.5
 31
0.0
  0
LINE
  5
A6
330
A2
100
AcDbEntity
  8
FORMAT
 62
     0
100
AcDbLine
 10
0.0
 20
0.0
 30
0.0
 11
-2.5
 21
0.0
 31
0.0
  0
LINE
  5
A7
330
A2
100
AcDbEntity
  8
FORMAT
 62
     0
100
AcDbLine
 10
0.0
 20
0.0
 30
0.0
 11
0.0
 21
-2.5
 31
0.0
  0
LINE
  5
A8
330
A2
100
AcDbEntity
  8
FORMAT
 62
     0
100
AcDbLine
 10
0.0
 20
0.0
 30
0.0
 11
2.5
 21
0.0
 31
0.0
  0
LINE
  5
A9
330
A2
100
AcDbEntity
  8
FORMAT
 62
     0
100
AcDbLine
 10
0.0
 20
5.0
 30
0.0
 11
0.0
 21
92.5
 31
0.0
  0
LINE
  5
AA
330
A2
100
AcDbEntity
  8
FORMAT
 62
     0
100
AcDbLine
 10
-5.0
 20
0.0
 30
0.0
 11
-92.5
 21
0.0
 31
0.0
  0
LINE
  5
AB
330
A2
100
AcDbEntity
  8
FORMAT
 62
     0
100
AcDbLine
 10
0.0
 20
-5.0
 30
0.0
 11
0.0
 21
-92.5
 31
0.0
  0
LINE
  5
AC
330
A2
100
AcDbEntity
  8
FORMAT
 62
     0
100
AcDbLine
 10
5.0
 20
0.0
 30
0.0
 11
92.5
 21
0.0
 31
0.0
  0
ENDBLK
  5
A4
330
A2
100
AcDbEntity
  8
0
100
AcDbBlockEnd
  0
ENDSEC
  0
SECTION
  2
ENTITIES
  0
LINE
  5
83
330
1F
100
AcDbEntity
  8
0
  6
Continuous
 62
     7
370
    25
100
AcDbLine
 10
134.8748397116
 20
322.4406077159
 30
0.0
 11
37.8772320515
 21
154.4358230361
 31
0.0
  0
LINE
  5
84
330
1F
100
AcDbEntity
  8
0
  6
Continuous
 62
     7
370
    25
100
AcDbLine
 10
217.8772320515
 20
106.2049683985
 30
0.0
 11
290.7594123928
 21
232.4406077159
 31
0.0
  0
LINE
  5
85
330
1F
100
AcDbEntity
  8
0
  6
Continuous
 62
     7
370
    25
100
AcDbLine
 10
37.8772320515
 20
154.4358230361
 30
0.0
 11
37.8772320515
 21
-39.5593922841
 31
0.0
  0
LINE
  5
86
330
1F
100
AcDbEntity
  8
0
  6
Continuous
 62
     7
370
    25
100
AcDbLine
 10
217.8772320515
 20
-39.5593922841
 30
0.0
 11
217.8772320515
 21
106.2049683985
 31
0.0
  0
LINE
  5
87
330
1F
100
AcDbEntity
  8
0
  6
Continuous
 62
     7
370
    25
100
AcDbLine
 10
212.8171260522
 20
277.4406077159
 30
0.0
 11
290.7594123928
 21
232.4406077159
 31
0.0
  0
LINE
  5
88
330
1F
100
AcDbEntity
  8
0
  6
Continuous
 62
     7
370
    25
100
AcDbLine
 10
134.8748397116
 20
322.4406077159
 30
0.0
 11
212.8171260522
 21
277.4406077159
 31
0.0
  0
LINE
  5
89
330
1F
100
AcDbEntity
  8
0
  6
Continuous
 62
     7
370
    25
100
AcDbLine
 10
217.8772320515
 20
106.2049683985
 30
0.0
 11
37.8772320515
 21
154.4358230361
 31
0.0
  0
LINE
  5
8A
330
1F
100
AcDbEntity
  8
0
  6
Continuous
 62
     7
370
    25
100
AcDbLine
 10
127.8772320515
 20
-39.5593922841
 30
0.0
 11
217.8772320515
 21
-39.5593922841
 31
0.0
  0
LINE
  5
8B
330
1F
100
AcDbEntity
  8
0
  6
Continuous
 62
     7
370
    25
100
AcDbLine
 10
37.8772320515
 20
-39.5593922841
 30
0.0
 11
127.8772320515
 21
-39.5593922841
 31
0.0
  0
LINE
  5
8C
330
1F
100
AcDbEntity
  8
0
  6
Continuous
 62
     7
370
    25
100
AcDbLine
 10
-254.787618495
 20
277.4406077159
 30
0.0
 11
-254.787618495
 21
130.3203957173
 31
0.0
  0
LINE
  5
8D
330
1F
100
AcDbEntity
  8
0
  6
Continuous
 62
     7
370
    25
100
AcDbLine
 10
-74.787618495
 20
130.3203957173
 30
0.0
 11
-74.787618495
 21
277.4406077159
 31
0.0
  0
LINE
  5
8E
330
1F
100
AcDbEntity
  8
0
  6
Continuous
 62
     7
370
    25
100
AcDbLine
 10
-254.787618495
 20
130.3203957173
 30
0.0
 11
-254.787618495
 21
-39.5593922841
 31
0.0
  0
LINE
  5
8F
330
1F
100
AcDbEntity
  8
0
  6
Continuous
 62
     7
370
    25
100
AcDbLine
 10
-74.787618495
 20
-39.5593922841
 30
0.0
 11
-74.787618495
 21
130.3203957173
 31
0.0
  0
LWPOLYLINE
  5
90
330
1F
100
AcDbEntity
  8
0
  6
Continuous
 62
     7
370
    25
100
AcDbPolyline
 90
      105
 70
   128
 43
0.0
 10
-254.787618495
 20
277.4406077159
 10
-254.6234183751
 20
274.7235753319
 10
-254.1314171638
 20
272.0164571044
 10
-253.3134101202
 20
269.3291310143
 10
-252.1723820633
 20
266.671402823
 10
-250.7124964808
 20
264.0529702924
 10
-248.9390803367
 20
261.483387799
 10
-246.8586046343
 20
258.9720314705
 10
-244.4786608038
 20
256.528064974
 10
-241.8079330021
 20
254.1604060779
 10
-238.8561664254
 20
251.877694113
 10
-235.6341317498
 20
249.6882584476
 10
-232.1535858304
 20
247.6000880951
 10
-228.4272288018
 20
245.6208025625
 10
-224.4686577367
 20
243.7576240482
 10
-220.2923170316
 20
242.0173510885
 10
-215.9134457008
 20
240.4063337507
 10
-211.348021771
 20
238.9304504624
 10
-206.6127039789
 20
237.5950865615
 10
-201.7247709857
 20
236.4051146463
 10
-196.7020583288
 20
235.3648767951
 10
-191.562893342
 20
234.478168723
 10
-186.3260282809
 20
233.7482259317
 10
-181.0105718982
 20
233.1777119033
 10
-175.635919718
 20
232.7687083815
 10
-170.221683263
 20
232.5227077759
 10
-164.787618495
 20
232.4406077159
 10
-159.353553727
 20
232.5227077759
 10
-153.939317272
 20
232.7687083815
 10
-148.5646650917
 20
233.1777119033
 10
-143.2492087091
 20
233.7482259317
 10
-138.012343648
 20
234.478168723
 10
-132.8731786612
 20
235.3648767951
 10
-127.8504660042
 20
236.4051146463
 10
-122.962533011
 20
237.5950865615
 10
-118.227215219
 20
238.9304504624
 10
-113.6617912892
 20
240.4063337507
 10
-109.2829199584
 20
242.0173510885
 10
-105.1065792533
 20
243.7576240482
 10
-101.1480081882
 20
245.6208025625
 10
-97.4216511596
 20
247.6000880951
 10
-93.9411052402
 20
249.6882584476
 10
-90.7190705646
 20
251.877694113
 10
-87.7673039879
 20
254.1604060779
 10
-85.0965761862
 20
256.528064974
 10
-82.7166323557
 20
258.9720314705
 10
-80.6361566533
 20
261.483387799
 10
-78.8627405092
 20
264.0529702924
 10
-77.4028549266
 20
266.671402823
 10
-76.2618268697
 20
269.3291310143
 10
-75.4438198262
 20
272.0164571044
 10
-74.9518186149
 20
274.7235753319
 10
-74.787618495
 20
277.4406077159
 10
-74.9518186149
 20
280.1576400999
 10
-75.4438198262
 20
282.8647583274
 10
-76.2618268697
 20
285.5520844175
 10
-77.4028549266
 20
288.2098126089
 10
-78.8627405092
 20
290.8282451394
 10
-80.6361566533
 20
293.3978276328
 10
-82.7166323557
 20
295.9091839613
 10
-85.0965761862
 20
298.3531504579
 10
-87.7673039879
 20
300.7208093539
 10
-90.7190705646
 20
303.0035213188
 10
-93.9411052402
 20
305.1929569842
 10
-97.4216511596
 20
307.2811273368
 10
-101.1480081882
 20
309.2604128693
 10
-105.1065792533
 20
311.1235913836
 10
-109.2829199584
 20
312.8638643433
 10
-113.6617912892
 20
314.4748816811
 10
-118.227215219
 20
315.9507649695
 10
-122.962533011
 20
317.2861288703
 10
-127.8504660042
 20
318.4761007856
 10
-132.8731786612
 20
319.5163386368
 10
-138.012343648
 20
320.4030467088
 10
-143.2492087091
 20
321.1329895001
 10
-148.5646650917
 20
321.7035035285
 10
-153.939317272
 20
322.1125070503
 10
-159.353553727
 20
322.358507656
 10
-164.787618495
 20
322.4406077159
 10
-170.221683263
 20
322.358507656
 10
-175.635919718
 20
322.1125070503
 10
-181.0105718982
 20
321.7035035285
 10
-186.3260282809
 20
321.1329895001
 10
-191.562893342
 20
320.4030467088
 10
-196.7020583288
 20
319.5163386368
 10
-201.7247709857
 20
318.4761007856
 10
-206.6127039789
 20
317.2861288703
 10
-211.348021771
 20
315.9507649695
 10
-215.9134457008
 20
314.4748816811
 10
-220.2923170316
 20
312.8638643433
 10
-224.4686577367
 20
311.1235913836
 10
-228.4272288018
 20
309.2604128693
 10
-232.1535858304
 20
307.2811273368
 10
-235.6341317498
 20
305.1929569842
 10
-238.8561664254
 20
303.0035213188
 10
-241.8079330021
 20
300.7208093539
 10
-244.4786608038
 20
298.3531504579
 10
-246.8586046343
 20
295.9091839613
 10
-248.9390803367
 20
293.3978276328
 10
-250.7124964808
 20
290.8282451394
 10
-252.1723820633
 20
288.2098126089
 10
-253.3134101202
 20
285.5520844175
 10
-254.1314171638
 20
282.8647583274
 10
-254.6234183751
 20
280.1576400999
 10
-254.787618495
 20
277.4406077159
  0
ELLIPSE
  5
91
330
1F
100
AcDbEntity
  8
0
  6
Continuous
 62
     7
370
    25
100
AcDbEllipse
 10
-164.787618495
 20
130.3203957173
 30
0.0
 11
90.00000000000003
 21
0.0
 31
0.0
210
0.0
220
0.0
230
1.0
 40
0.2679491924
 41
3.141592653589849
 42
6.283185307179586
  0
LWPOLYLINE
  5
92
330
1F
100
AcDbEntity
  8
0
  6
Continuous
 62
     7
370
    25
100
AcDbPolyline
 90
       95
 70
   128
 43
0.0
 10
-238.387618495
 20
277.4406077159
 10
-238.2232607616
 20
279.8985766377
 10
-237.7309216232
 20
282.3455676737
 10
-236.9127999857
 20
284.7706519677
 10
-235.772549779
 20
287.1629985048
 10
-234.3152636373
 20
289.5119224844
 10
-232.5474501544
 20
291.8069330419
 10
-230.4770048143
 20
294.0377801031
 10
-228.1131747285
 20
296.1945001633
 10
-225.4665173361
 20
298.2674607873
 10
-222.5488532515
 20
300.2474036297
 10
-219.3732134707
 20
302.125485785
 10
-215.9537811718
 20
303.8933192826
 10
-212.3058283697
 20
305.5430085489
 10
-208.4456477071
 20
307.067185671
 10
-204.3904796878
 20
308.4590433041
 10
-200.1584356767
 20
309.7123650739
 10
-195.7684170097
 20
310.8215533413
 10
-191.2400305758
 20
311.7816542023
 10
-186.5935012482
 20
312.5883796131
 10
-181.8495815547
 20
313.2381265425
 10
-177.0294589923
 20
313.7279930628
 10
-172.1546613985
 20
314.0557913112
 10
-167.2469608027
 20
314.2200572612
 10
-162.3282761872
 20
314.2200572612
 10
-157.4205755915
 20
314.0557913112
 10
-152.5457779977
 20
313.7279930628
 10
-147.7256554353
 20
313.2381265425
 10
-142.9817357418
 20
312.5883796131
 10
-138.3352064141
 20
311.7816542023
 10
-133.8068199803
 20
310.8215533413
 10
-129.4168013132
 20
309.7123650739
 10
-125.1847573022
 20
308.4590433041
 10
-121.1295892829
 20
307.067185671
 10
-117.2694086203
 20
305.5430085489
 10
-113.6214558181
 20
303.8933192826
 10
-110.2020235193
 20
302.125485785
 10
-107.0263837385
 20
300.2474036297
 10
-104.1087196538
 20
298.2674607873
 10
-101.4620622614
 20
296.1945001633
 10
-99.0982321757
 20
294.0377801031
 10
-97.0277868356
 20
291.8069330419
 10
-95.2599733526
 20
289.5119224844
 10
-93.802687211
 20
287.1629985048
 10
-92.6624370043
 20
284.7706519677
 10
-91.8443153668
 20
282.3455676737
 10
-91.3519762283
 20
279.8985766377
 10
-91.187618495
 20
277.4406077159
 10
-91.3519762283
 20
274.9826387941
 10
-91.8443153668
 20
272.5356477582
 10
-92.6624370043
 20
270.1105634641
 10
-93.802687211
 20
267.7182169271
 10
-95.2599733526
 20
265.3692929474
 10
-97.0277868356
 20
263.0742823899
 10
-99.0982321757
 20
260.8434353288
 10
-101.4620622614
 20
258.6867152685
 10
-104.1087196538
 20
256.6137546446
 10
-107.0263837385
 20
254.6338118022
 10
-110.2020235193
 20
252.7557296468
 10
-113.6214558181
 20
250.9878961492
 10
-117.2694086203
 20
249.338206883
 10
-121.1295892829
 20
247.8140297608
 10
-125.1847573022
 20
246.4221721278
 10
-129.4168013132
 20
245.1688503579
 10
-133.8068199803
 20
244.0596620905
 10
-138.3352064141
 20
243.0995612296
 10
-142.9817357418
 20
242.2928358187
 10
-147.7256554353
 20
241.6430888894
 10
-152.5457779977
 20
241.1532223691
 10
-157.4205755915
 20
240.8254241207
 10
-162.3282761872
 20
240.6611581706
 10
-167.2469608027
 20
240.6611581706
 10
-172.1546613985
 20
240.8254241207
 10
-177.0294589923
 20
241.1532223691
 10
-181.8495815547
 20
241.6430888894
 10
-186.5935012482
 20
242.2928358187
 10
-191.2400305758
 20
243.0995612296
 10
-195.7684170097
 20
244.0596620905
 10
-200.1584356767
 20
245.1688503579
 10
-204.3904796878
 20
246.4221721278
 10
-208.4456477071
 20
247.8140297608
 10
-212.3058283697
 20
249.338206883
 10
-215.9537811718
 20
250.9878961492
 10
-219.3732134707
 20
252.7557296468
 10
-222.5488532515
 20
254.6338118022
 10
-225.4665173361
 20
256.6137546446
 10
-228.1131747285
 20
258.6867152685
 10
-230.4770048143
 20
260.8434353288
 10
-232.5474501544
 20
263.0742823899
 10
-234.3152636373
 20
265.3692929474
 10
-235.772549779
 20
267.7182169271
 10
-236.9127999857
 20
270.1105634641
 10
-237.7309216232
 20
272.5356477582
 10
-238.2232607616
 20
274.9826387941
 10
-238.387618495
 20
277.4406077159
  0
LINE
  5
93
330
1F
100
AcDbEntity
  8
0
  6
Continuous
 62
     7
370
    25
100
AcDbLine
 10
-254.787618495
 20
-39.5593922841
 30
0.0
 11
-74.787618495
 21
-39.5593922841
 31
0.0
  0
LINE
  5
94
330
1F
100
AcDbEntity
  8
0
  6
Continuous
 62
     7
370
    25
100
AcDbLine
 10
363.7068550037
 20
277.4406077159
 30
0.0
 11
363.7068550037
 21
130.3203957173
 31
0.0
  0
LINE
  5
95
330
1F
100
AcDbEntity
  8
0
  6
Continuous
 62
     7
370
    25
100
AcDbLine
 10
543.7068550037
 20
130.3203957173
 30
0.0
 11
543.7068550037
 21
277.4406077159
 31
0.0
  0
LINE
  5
96
330
1F
100
AcDbEntity
  8
0
  6
Continuous
 62
     7
370
    25
100
AcDbLine
 10
363.7068550037
 20
130.3203957173
 30
0.0
 11
363.7068550037
 21
-39.5593922841
 31
0.0
  0
LINE
  5
97
330
1F
100
AcDbEntity
  8
0
  6
Continuous
 62
     7
370
    25
100
AcDbLine
 10
543.7068550037
 20
-39.5593922841
 30
0.0
 11
543.7068550037
 21
130.3203957173
 31
0.0
  0
LWPOLYLINE
  5
98
330
1F
100
AcDbEntity
  8
0
  6
Continuous
 62
     7
370
    25
100
AcDbPolyline
 90
       53
 70
   128
 43
0.0
 10
363.7068550037
 20
277.4406077159
 10
363.8710551236
 20
280.1576400999
 10
364.3630563349
 20
282.8647583274
 10
365.1810633784
 20
285.5520844175
 10
366.3220914353
 20
288.2098126089
 10
367.7819770179
 20
290.8282451394
 10
369.555393162
 20
293.3978276328
 10
371.6358688644
 20
295.9091839613
 10
374.0158126949
 20
298.3531504579
 10
376.6865404965
 20
300.7208093539
 10
379.6383070732
 20
303.0035213188
 10
382.8603417489
 20
305.1929569842
 10
386.3408876683
 20
307.2811273368
 10
390.0672446969
 20
309.2604128693
 10
394.025815762
 20
311.1235913836
 10
398.2021564671
 20
312.8638643433
 10
402.5810277979
 20
314.4748816811
 10
407.1464517277
 20
315.9507649695
 10
411.8817695197
 20
317.2861288703
 10
416.7697025129
 20
318.4761007856
 10
421.7924151698
 20
319.5163386368
 10
426.9315801567
 20
320.4030467088
 10
432.1684452178
 20
321.1329895001
 10
437.4839016004
 20
321.7035035285
 10
442.8585537807
 20
322.1125070503
 10
448.2727902357
 20
322.358507656
 10
453.7068550037
 20
322.4406077159
 10
459.1409197717
 20
322.358507656
 10
464.5551562267
 20
322.1125070503
 10
469.9298084069
 20
321.7035035285
 10
475.2452647896
 20
321.1329895001
 10
480.4821298506
 20
320.4030467088
 10
485.6212948375
 20
319.5163386368
 10
490.6440074944
 20
318.4761007856
 10
495.5319404876
 20
317.2861288703
 10
500.2672582797
 20
315.9507649695
 10
504.8326822095
 20
314.4748816811
 10
509.2115535402
 20
312.8638643433
 10
513.3878942453
 20
311.1235913836
 10
517.3464653105
 20
309.2604128693
 10
521.0728223391
 20
307.2811273368
 10
524.5533682585
 20
305.1929569842
 10
527.7754029341
 20
303.0035213188
 10
530.7271695108
 20
300.7208093539
 10
533.3978973125
 20
298.3531504579
 10
535.777841143
 20
295.9091839613
 10
537.8583168454
 20
293.3978276328
 10
539.6317329894
 20
290.8282451394
 10
541.091618572
 20
288.2098126089
 10
542.2326466289
 20
285.5520844175
 10
543.0506536725
 20
282.8647583274
 10
543.5426548838
 20
280.1576400999
 10
543.7068550037
 20
277.4406077159
  0
ELLIPSE
  5
99
330
1F
100
AcDbEntity
  8
0
  6
Continuous
 62
     7
370
    25
100
AcDbEllipse
 10
453.7068550037
 20
130.3203957173
 30
0.0
 11
90.0
 21
0.0
 31
0.0
210
0.0
220
0.0
230
1.0
 40
0.2679491924
 41
1.570796326794897
 42
3.141592653589849
  0
ELLIPSE
  5
9A
330
1F
100
AcDbEntity
  8
0
  6
Continuous
 62
     7
370
    25
100
AcDbEllipse
 10
453.7068550037
 20
130.3203957173
 30
0.0
 11
90.0
 21
0.0
 31
0.0
210
0.0
220
0.0
230
1.0
 40
0.2679491924
 41
0.0
 42
1.570796326794897
  0
LINE
  5
9B
330
1F
100
AcDbEntity
  8
0
  6
Continuous
 62
     7
370
    25
100
AcDbLine
 10
363.7068550037
 20
-39.5593922841
 30
0.0
 11
543.7068550037
 21
-39.5593922841
 31
0.0
  0
LINE
  5
9C
330
1F
100
AcDbEntity
  8
0
  6
Continuous
 62
     7
370
    25
100
AcDbLine
 10
212.8171260522
 20
623.6144803342
 30
0.0
 11
127.8772320515
 21
623.6144803342
 31
0.0
  0
LINE
  5
9D
330
1F
100
AcDbEntity
  8
0
  6
Continuous
 62
     7
370
    25
100
AcDbLine
 10
127.8772320515
 20
443.6144803342
 30
0.0
 11
212.8171260522
 21
443.6144803342
 31
0.0
  0
CIRCLE
  5
9E
330
1F
100
AcDbEntity
  8
0
  6
Continuous
 62
     7
370
    25
100
AcDbCircle
 10
127.8772320515
 20
533.6144803342
 30
0.0
 40
89.99999999999989
  0
CIRCLE
  5
9F
330
1F
100
AcDbEntity
  8
0
  6
Continuous
 62
     7
370
    25
100
AcDbCircle
 10
127.8772320515
 20
533.6144803342
 30
0.0
 40
73.59999999999991
  0
LWPOLYLINE
  5
A0
330
1F
100
AcDbEntity
  8
0
  6
Continuous
 62
     7
370
    25
100
AcDbPolyline
 90
       54
 70
   128
 43
0.0
 10
212.8171260522
 20
623.6144803342
 10
217.5231641871
 20
623.4502802143
 10
222.2120304992
 20
622.958279003
 10
226.8666158238
 20
622.1402719594
 10
231.4699360839
 20
620.9992439025
 10
236.005194263
 20
619.5393583199
 10
240.4558416958
 20
617.7659421758
 10
244.8056384526
 20
615.6854664734
 10
249.0387125967
 20
613.3055226429
 10
253.1396180996
 20
610.6347948413
 10
257.0933912019
 20
607.6830282646
 10
260.8856050142
 20
604.460993589
 10
264.5024221597
 20
600.9804476696
 10
267.9306452648
 20
597.2540906409
 10
271.1577651151
 20
593.2955195758
 10
274.1720063004
 20
589.1191788707
 10
276.9623701814
 20
584.74030754
 10
279.5186750228
 20
580.1748836101
 10
281.8315931457
 20
575.4395658181
 10
283.8926849624
 20
570.5516328249
 10
285.6944297727
 20
565.528920168
 10
287.2302532049
 20
560.3897551811
 10
288.4945512061
 20
555.15289012
 10
289.4827104898
 20
549.8374337374
 10
290.19112537
 20
544.4627815571
 10
290.6172109176
 20
539.0485451022
 10
290.7594123928
 20
533.6144803342
 10
290.6172109176
 20
528.1804155661
 10
290.19112537
 20
522.7661791112
 10
289.4827104898
 20
517.3915269309
 10
288.4945512061
 20
512.0760705483
 10
287.2302532049
 20
506.8392054872
 10
285.6944297727
 20
501.7000405003
 10
283.8926849624
 20
496.6773278434
 10
281.8315931457
 20
491.7893948502
 10
279.5186750228
 20
487.0540770582
 10
276.9623701814
 20
482.4886531283
 10
274.1720063004
 20
478.1097817976
 10
271.1577651151
 20
473.9334410925
 10
267.9306452648
 20
469.9748700274
 10
264.5024221597
 20
466.2485129988
 10
260.8856050142
 20
462.7679670793
 10
257.0933912019
 20
459.5459324037
 10
253.1396180996
 20
456.594165827
 10
249.0387125967
 20
453.9234380254
 10
244.8056384526
 20
451.5434941949
 10
240.4558416958
 20
449.4630184925
 10
236.005194263
 20
447.6896023484
 10
231.4699360839
 20
446.2297167658
 10
226.8666158238
 20
445.0886887089
 10
222.2120304992
 20
444.2706816653
 10
217.5231641871
 20
443.7786804541
 10
212.8171260522
 20
443.6144803342
 10
212.8171260522
 20
443.6144803342
  0
LWPOLYLINE
  5
A1
330
1F
100
AcDbEntity
  8
0
  6
Continuous
 62
     7
370
    25
100
AcDbPolyline
 90
       30
 70
   128
 43
0.0
 10
173.3963840568
 20
591.4501682847
 10
173.3145967717
 20
591.3757150907
 10
170.0616630578
 20
588.2000753098
 10
166.9996856207
 20
584.780643011
 10
164.1423399949
 20
581.1326902089
 10
161.5023877796
 20
577.2725095462
 10
159.0916196422
 20
573.217341527
 10
156.9208026586
 20
568.9852975159
 10
154.9996322243
 20
564.5952788489
 10
153.3366887528
 20
560.066892415
 10
151.9393993534
 20
555.4203630873
 10
150.8140046597
 20
550.6764433938
 10
149.9655309576
 20
545.8563208315
 10
149.3977677367
 20
540.9815232377
 10
149.1132507654
 20
536.0738226419
 10
149.1132507654
 20
531.1551380264
 10
149.3977677367
 20
526.2474374306
 10
149.9655309576
 20
521.3726398368
 10
150.8140046597
 20
516.5525172745
 10
151.9393993534
 20
511.808597581
 10
153.3366887528
 20
507.1620682533
 10
154.9996322243
 20
502.6336818194
 10
156.9208026586
 20
498.2436631524
 10
159.0916196422
 20
494.0116191413
 10
161.5023877796
 20
489.9564511221
 10
164.1423399949
 20
486.0962704594
 10
166.9996856207
 20
482.4483176573
 10
170.0616630578
 20
479.0288853585
 10
173.3145967717
 20
475.8532455776
 10
173.3963840568
 20
475.7787923836
  0
INSERT
  5
AD
330
1F
100
AcDbEntity
  8
FORMAT
 62
     7
100
AcDbBlockReference
  2
SW_CENTERMARKSYMBOL_0
 10
127.8772320515
 20
533.6144803342
 30
0.0
  0
LINE
  5
AE
330
1F
100
AcDbEntity
  8
0
  6
Continuous
 62
     7
370
    25
100
AcDbLine
 10
212.8171260522
 20
-188.2626859275
 30
0.0
 11
127.8772320515
 21
-188.2626859275
 31
0.0
  0
LINE
  5
AF
330
1F
100
AcDbEntity
  8
0
  6
Continuous
 62
     7
370
    25
100
AcDbLine
 10
127.8772320515
 20
-368.2626859275
 30
0.0
 11
212.8171260522
 21
-368.2626859275
 31
0.0
  0
LWPOLYLINE
  5
B0
330
1F
100
AcDbEntity
  8
0
  6
Continuous
 62
     7
370
    25
100
AcDbPolyline
 90
      105
 70
   128
 43
0.0
 10
212.8171260522
 20
-368.2626859275
 10
217.5231641871
 20
-368.0984858076
 10
222.2120304992
 20
-367.6064845964
 10
226.8666158238
 20
-366.7884775528
 10
231.4699360839
 20
-365.6474494959
 10
236.005194263
 20
-364.1875639133
 10
240.4558416958
 20
-362.4141477692
 10
244.8056384526
 20
-360.3336720668
 10
249.0387125967
 20
-357.9537282363
 10
253.1396180996
 20
-355.2830004347
 10
257.0933912019
 20
-352.331233858
 10
260.8856050142
 20
-349.1091991824
 10
264.5024221597
 20
-345.6286532629
 10
267.9306452648
 20
-341.9022962343
 10
271.1577651151
 20
-337.9437251692
 10
274.1720063004
 20
-333.7673844641
 10
276.9623701814
 20
-329.3885131333
 10
279.5186750228
 20
-324.8230892035
 10
281.8315931457
 20
-320.0877714115
 10
283.8926849624
 20
-315.1998384183
 10
285.6944297727
 20
-310.1771257614
 10
287.2302532049
 20
-305.0379607745
 10
288.4945512061
 20
-299.8010957134
 10
289.4827104898
 20
-294.4856393308
 10
290.19112537
 20
-289.1109871505
 10
290.6172109176
 20
-283.6967506955
 10
290.7594123928
 20
-278.2626859275
 10
290.6172109176
 20
-272.8286211595
 10
290.19112537
 20
-267.4143847046
 10
289.4827104898
 20
-262.0397325243
 10
288.4945512061
 20
-256.7242761417
 10
287.2302532049
 20
-251.4874110806
 10
285.6944297727
 20
-246.3482460937
 10
283.8926849624
 20
-241.3255334368
 10
281.8315931457
 20
-236.4376004436
 10
279.5186750228
 20
-231.7022826515
 10
276.9623701814
 20
-227.1368587217
 10
274.1720063004
 20
-222.757987391
 10
271.1577651151
 20
-218.5816466859
 10
267.9306452648
 20
-214.6230756207
 10
264.5024221597
 20
-210.8967185921
 10
260.8856050142
 20
-207.4161726727
 10
257.0933912019
 20
-204.1941379971
 10
253.1396180996
 20
-201.2423714204
 10
249.0387125967
 20
-198.5716436187
 10
244.8056384526
 20
-196.1916997882
 10
240.4558416958
 20
-194.1112240858
 10
236.005194263
 20
-192.3378079418
 10
231.4699360839
 20
-190.8779223592
 10
226.8666158238
 20
-189.7368943023
 10
222.2120304992
 20
-188.9188872587
 10
217.5231641871
 20
-188.4268860474
 10
212.8171260522
 20
-188.2626859275
 10
208.1110879173
 20
-188.4268860474
 10
203.4222216052
 20
-188.9188872587
 10
198.7676362806
 20
-189.7368943023
 10
194.1643160205
 20
-190.8779223592
 10
189.6290578414
 20
-192.3378079418
 10
185.1784104085
 20
-194.1112240858
 10
180.8286136517
 20
-196.1916997882
 10
176.5955395076
 20
-198.5716436187
 10
172.4946340047
 20
-201.2423714204
 10
168.5408609025
 20
-204.1941379971
 10
164.7486470901
 20
-207.4161726727
 10
161.1318299446
 20
-210.8967185921
 10
157.7036068396
 20
-214.6230756207
 10
154.4764869892
 20
-218.5816466859
 10
151.462245804
 20
-222.757987391
 10
148.671881923
 20
-227.1368587217
 10
146.1155770815
 20
-231.7022826515
 10
143.8026589587
 20
-236.4376004436
 10
141.7415671419
 20
-241.3255334368
 10
139.9398223317
 20
-246.3482460937
 10
138.4039988994
 20
-251.4874110806
 10
137.1397008983
 20
-256.7242761417
 10
136.1515416146
 20
-262.0397325243
 10
135.4431267344
 20
-267.4143847046
 10
135.0170411867
 20
-272.8286211595
 10
134.8748397116
 20
-278.2626859275
 10
135.0170411867
 20
-283.6967506955
 10
135.4431267344
 20
-289.1109871505
 10
136.1515416146
 20
-294.4856393308
 10
137.1397008983
 20
-299.8010957134
 10
138.4039988994
 20
-305.0379607745
 10
139.9398223317
 20
-310.1771257614
 10
141.7415671419
 20
-315.1998384183
 10
143.8026589587
 20
-320.0877714115
 10
146.1155770815
 20
-324.8230892035
 10
148.671881923
 20
-329.3885131333
 10
151.462245804
 20
-333.7673844641
 10
154.4764869892
 20
-337.9437251692
 10
157.7036068396
 20
-341.9022962343
 10
161.1318299446
 20
-345.6286532629
 10
164.7486470901
 20
-349.1091991824
 10
168.5408609025
 20
-352.331233858
 10
172.4946340047
 20
-355.2830004347
 10
176.5955395076
 20
-357.9537282363
 10
180.8286136517
 20
-360.3336720668
 10
185.1784104085
 20
-362.4141477692
 10
189.6290578414
 20
-364.1875639133
 10
194.1643160205
 20
-365.6474494959
 10
198.7676362806
 20
-366.7884775528
 10
203.4222216052
 20
-367.6064845964
 10
208.1110879173
 20
-368.0984858076
 10
212.8171260522
 20
-368.2626859275
  0
ARC
  5
B1
330
1F
100
AcDbEntity
  8
0
  6
Continuous
 62
     7
370
    25
100
AcDbCircle
 10
127.8772320515
 20
-278.2626859275
 30
0.0
 40
90.00000000000001
100
AcDbArc
 50
90.0
 51
180.0
  0
ARC
  5
B2
330
1F
100
AcDbEntity
  8
0
  6
Continuous
 62
     7
370
    25
100
AcDbCircle
 10
127.8772320515
 20
-278.2626859275
 30
0.0
 40
90.00000000000006
100
AcDbArc
 50
180.0
 51
270.0
  0
LWPOLYLINE
  5
B3
330
1F
100
AcDbEntity
  8
0
  6
Continuous
 62
     7
370
    25
100
AcDbPolyline
 90
       95
 70
   128
 43
0.0
 10
212.8171260522
 20
-351.8626859275
 10
208.5597989962
 20
-351.6983281942
 10
204.3214861963
 20
-351.2059890557
 10
200.1211169863
 20
-350.3878674182
 10
195.9774512348
 20
-349.2476172115
 10
191.908995559
 20
-347.7903310699
 10
187.9339206695
 20
-346.0225175869
 10
184.0699802157
 20
-343.9520722468
 10
180.3344314936
 20
-341.5882421611
 10
176.7439583708
 20
-338.9415847687
 10
173.3145967717
 20
-336.023920684
 10
170.0616630578
 20
-332.8482809032
 10
166.9996856207
 20
-329.4288486044
 10
164.1423399949
 20
-325.7808958023
 10
161.5023877796
 20
-321.9207151396
 10
159.0916196422
 20
-317.8655471204
 10
156.9208026586
 20
-313.6335031093
 10
154.9996322243
 20
-309.2434844423
 10
153.3366887528
 20
-304.7150980084
 10
151.9393993534
 20
-300.0685686807
 10
150.8140046597
 20
-295.3246489872
 10
149.9655309576
 20
-290.5045264249
 10
149.3977677367
 20
-285.6297288311
 10
149.1132507654
 20
-280.7220282353
 10
149.1132507654
 20
-275.8033436198
 10
149.3977677367
 20
-270.895643024
 10
149.9655309576
 20
-266.0208454302
 10
150.8140046597
 20
-261.2007228678
 10
151.9393993534
 20
-256.4568031744
 10
153.3366887528
 20
-251.8102738467
 10
154.9996322243
 20
-247.2818874128
 10
156.9208026586
 20
-242.8918687458
 10
159.0916196422
 20
-238.6598247347
 10
161.5023877796
 20
-234.6046567155
 10
164.1423399949
 20
-230.7444760528
 10
166.9996856207
 20
-227.0965232507
 10
170.0616630578
 20
-223.6770909518
 10
173.3145967717
 20
-220.501451171
 10
176.7439583708
 20
-217.5837870864
 10
180.3344314936
 20
-214.937129694
 10
184.0699802157
 20
-212.5732996082
 10
187.9339206695
 20
-210.5028542682
 10
191.908995559
 20
-208.7350407852
 10
195.9774512348
 20
-207.2777546435
 10
200.1211169863
 20
-206.1375044368
 10
204.3214861963
 20
-205.3193827993
 10
208.5597989962
 20
-204.8270436609
 10
212.8171260522
 20
-204.6626859275
 10
217.0744531082
 20
-204.8270436609
 10
221.3127659081
 20
-205.3193827993
 10
225.5131351181
 20
-206.1375044368
 10
229.6568008695
 20
-207.2777546435
 10
233.7252565454
 20
-208.7350407852
 10
237.7003314349
 20
-210.5028542682
 10
241.5642718887
 20
-212.5732996082
 10
245.2998206107
 20
-214.937129694
 10
248.8902937336
 20
-217.5837870864
 10
252.3196553326
 20
-220.501451171
 10
255.5725890465
 20
-223.6770909518
 10
258.6345664837
 20
-227.0965232507
 10
261.4919121095
 20
-230.7444760528
 10
264.1318643248
 20
-234.6046567155
 10
266.5426324621
 20
-238.6598247347
 10
268.7134494458
 20
-242.8918687458
 10
270.6346198801
 20
-247.2818874128
 10
272.2975633516
 20
-251.8102738467
 10
273.694852751
 20
-256.4568031744
 10
274.8202474447
 20
-261.2007228678
 10
275.6687211467
 20
-266.0208454302
 10
276.2364843676
 20
-270.895643024
 10
276.521001339
 20
-275.8033436198
 10
276.521001339
 20
-280.7220282353
 10
276.2364843676
 20
-285.6297288311
 10
275.6687211467
 20
-290.5045264249
 10
274.8202474447
 20
-295.3246489872
 10
273.694852751
 20
-300.0685686807
 10
272.2975633516
 20
-304.7150980084
 10
270.6346198801
 20
-309.2434844423
 10
268.7134494458
 20
-313.6335031093
 10
266.5426324621
 20
-317.8655471204
 10
264.1318643248
 20
-321.9207151396
 10
261.4919121095
 20
-325.7808958023
 10
258.6345664837
 20
-329.4288486044
 10
255.5725890465
 20
-332.8482809032
 10
252.3196553326
 20
-336.023920684
 10
248.8902937336
 20
-338.9415847687
 10
245.2998206107
 20
-341.5882421611
 10
241.5642718887
 20
-343.9520722468
 10
237.7003314349
 20
-346.0225175869
 10
233.7252565454
 20
-347.7903310699
 10
229.6568008695
 20
-349.2476172115
 10
225.5131351181
 20
-350.3878674182
 10
221.3127659081
 20
-351.2059890557
 10
217.0744531082
 20
-351.6983281942
 10
212.8171260522
 20
-351.8626859275
  0
ARC
  5
B4
330
1F
100
AcDbEntity
  8
0
  6
Continuous
 62
     7
370
    25
100
AcDbCircle
 10
127.8772320515
 20
-278.2626859275
 30
0.0
 40
73.60000000000001
100
AcDbArc
 50
308.2042538963
 51
51.7957461037
  0
LINE
  5
B5
330
1F
100
AcDbEntity
  8
0
  6
Continuous
 62
     7
370
    25
100
AcDbLine
 10
347.0138861104
 20
-298.3454817996
 30
0.0
 11
347.0138861104
 21
-450.9830645057
 31
0.0
  0
LINE
  5
B6
330
1F
100
AcDbEntity
  8
0
  6
Continuous
 62
     7
370
    25
100
AcDbLine
 10
527.0138861104
 20
-450.9830645057
 30
0.0
 11
527.0138861104
 21
-326.1930871766
 31
0.0
  0
LINE
  5
B7
330
1F
100
AcDbEntity
  8
0
  6
Continuous
 62
     7
370
    25
100
AcDbLine
 10
413.1695458396
 20
-124.9122886331
 30
0.0
 11
348.0714947751
 21
-292.6957486586
 31
0.0
  0
LINE
  5
B8
330
1F
100
AcDbEntity
  8
0
  6
Continuous
 62
     7
370
    25
100
AcDbLine
 10
527.0138861104
 20
-329.116943917
 30
0.0
 11
580.9813764635
 21
-190.0213471632
 31
0.0
  0
LWPOLYLINE
  5
B9
330
1F
100
AcDbEntity
  8
0
  6
Continuous
 62
     7
370
    25
100
AcDbPolyline
 90
      105
 70
   128
 43
0.0
 10
373.3742758036
 20
-414.2446994737
 10
377.3328468687
 20
-412.0935193502
 10
381.5091875739
 20
-410.0842429596
 10
385.8880589046
 20
-408.2242019334
 10
390.4534828344
 20
-406.5201833597
 10
395.1888006265
 20
-404.9784050175
 10
400.0767336197
 20
-403.6044926887
 10
405.0994462766
 20
-402.4034596304
 10
410.2386112635
 20
-401.379688282
 10
415.4754763245
 20
-400.5369142742
 10
420.7909327072
 20
-399.8782127978
 10
426.1655848874
 20
-399.4059873831
 10
431.5798213424
 20
-399.1219611295
 10
437.0138861104
 20
-399.027170418
 10
442.4479508784
 20
-399.1219611295
 10
447.8621873334
 20
-399.4059873831
 10
453.2368395137
 20
-399.8782127978
 10
458.5522958963
 20
-400.5369142742
 10
463.7891609574
 20
-401.379688282
 10
468.9283259442
 20
-402.4034596304
 10
473.9510386012
 20
-403.6044926887
 10
478.8389715944
 20
-404.9784050175
 10
483.5742893864
 20
-406.5201833597
 10
488.1397133162
 20
-408.2242019334
 10
492.518584647
 20
-410.0842429596
 10
496.6949253521
 20
-412.0935193502
 10
500.6534964172
 20
-414.2446994737
 10
504.3798534458
 20
-416.529933907
 10
507.8603993652
 20
-418.9408840775
 10
511.0824340408
 20
-421.4687526896
 10
514.0342006176
 20
-424.1043158247
 10
516.7049284192
 20
-426.8379565989
 10
519.0848722497
 20
-429.6597002533
 10
521.1653479521
 20
-432.5592505515
 10
522.9387640962
 20
-435.5260273488
 10
524.3986496788
 20
-438.5492051984
 10
525.5396777357
 20
-441.6177528522
 10
526.3576847792
 20
-444.7204735126
 10
526.8496859905
 20
-447.8460456884
 10
527.0138861104
 20
-450.9830645057
 10
526.8496859905
 20
-454.1200833229
 10
526.3576847792
 20
-457.2456554987
 10
525.5396777357
 20
-460.3483761591
 10
524.3986496788
 20
-463.4169238129
 10
522.9387640962
 20
-466.4401016625
 10
521.1653479521
 20
-469.4068784598
 10
519.0848722497
 20
-472.306428758
 10
516.7049284192
 20
-475.1281724125
 10
514.0342006175
 20
-477.8618131867
 10
511.0824340408
 20
-480.4973763218
 10
507.8603993652
 20
-483.0252449338
 10
504.3798534458
 20
-485.4361951044
 10
500.6534964172
 20
-487.7214295377
 10
496.6949253521
 20
-489.8726096612
 10
492.518584647
 20
-491.8818860518
 10
488.1397133162
 20
-493.7419270779
 10
483.5742893864
 20
-495.4459456516
 10
478.8389715944
 20
-496.9877239938
 10
473.9510386012
 20
-498.3616363226
 10
468.9283259442
 20
-499.5626693809
 10
463.7891609574
 20
-500.5864407293
 10
458.5522958963
 20
-501.4292147372
 10
453.2368395137
 20
-502.0879162136
 10
447.8621873334
 20
-502.5601416282
 10
442.4479508784
 20
-502.8441678818
 10
437.0138861104
 20
-502.9389585934
 10
431.5798213424
 20
-502.8441678818
 10
426.1655848874
 20
-502.5601416282
 10
420.7909327072
 20
-502.0879162136
 10
415.4754763245
 20
-501.4292147372
 10
410.2386112635
 20
-500.5864407293
 10
405.0994462766
 20
-499.5626693809
 10
400.0767336197
 20
-498.3616363226
 10
395.1888006265
 20
-496.9877239938
 10
390.4534828344
 20
-495.4459456516
 10
385.8880589046
 20
-493.7419270779
 10
381.5091875739
 20
-491.8818860518
 10
377.3328468687
 20
-489.8726096612
 10
373.3742758036
 20
-487.7214295377
 10
369.647918775
 20
-485.4361951044
 10
366.1673728556
 20
-483.0252449338
 10
362.94533818
 20
-480.4973763218
 10
359.9935716033
 20
-477.8618131867
 10
357.3228438016
 20
-475.1281724125
 10
354.9428999711
 20
-472.306428758
 10
352.8624242687
 20
-469.4068784598
 10
351.0890081247
 20
-466.4401016625
 10
349.6291225421
 20
-463.4169238129
 10
348.4880944852
 20
-460.3483761591
 10
347.6700874416
 20
-457.2456554987
 10
347.1780862303
 20
-454.1200833229
 10
347.0138861104
 20
-450.9830645057
 10
347.1780862303
 20
-447.8460456884
 10
347.6700874416
 20
-444.7204735126
 10
348.4880944852
 20
-441.6177528522
 10
349.6291225421
 20
-438.5492051984
 10
351.0890081247
 20
-435.5260273488
 10
352.8624242687
 20
-432.5592505515
 10
354.9428999711
 20
-429.6597002533
 10
357.3228438016
 20
-426.8379565989
 10
359.9935716033
 20
-424.1043158247
 10
362.94533818
 20
-421.4687526896
 10
366.1673728556
 20
-418.9408840775
 10
369.647918775
 20
-416.529933907
 10
373.3742758036
 20
-414.2446994737
  0
LWPOLYLINE
  5
BA
330
1F
100
AcDbEntity
  8
0
  6
Continuous
 62
     7
370
    25
100
AcDbPolyline
 90
       95
 70
   128
 43
0.0
 10
384.9708270151
 20
-420.9392459906
 10
381.6109524977
 20
-423.0130432504
 10
378.4985209312
 20
-425.2117614149
 10
375.6474331903
 20
-427.525580475
 10
373.0704229251
 20
-429.9441663533
 10
370.7789996891
 20
-432.456717058
 10
368.7833975345
 20
-435.0520109277
 10
367.0925293051
 20
-437.71845675
 10
365.7139468289
 20
-440.4441455306
 10
364.6538071898
 20
-443.2169036817
 10
363.9168452289
 20
-446.0243473923
 10
363.5063523971
 20
-448.8539379373
 10
363.4241620551
 20
-451.6930376783
 10
363.670641285
 20
-454.5289665069
 10
364.2446892505
 20
-457.3490584763
 10
365.1437421142
 20
-460.1407183713
 10
366.3637844878
 20
-462.891477961
 10
367.8993673658
 20
-465.5890516855
 10
369.7436324623
 20
-468.2213915256
 10
371.8883428416
 20
-470.7767408125
 10
374.3239197067
 20
-473.243686736
 10
377.03948518
 20
-475.6112113168
 10
380.0229108868
 20
-477.8687406154
 10
383.2608721238
 20
-480.0061919579
 10
386.73890737
 20
-482.0140189677
 10
390.4414828756
 20
-483.883254202
 10
394.3520620397
 20
-485.6055492025
 10
398.4531792665
 20
-487.1732117816
 10
402.7265179707
 20
-488.5792403776
 10
407.1529923845
 20
-489.8173553256
 10
411.7128327984
 20
-490.8820269037
 10
416.3856738584
 20
-491.76850003
 10
421.1506455219
 20
-492.4728155005
 10
425.9864662687
 20
-492.9918276712
 10
430.8715381495
 20
-493.3232185079
 10
435.7840432473
 20
-493.4655079386
 10
440.702041122
 20
-493.4180604641
 10
445.603566801
 20
-493.1810879964
 10
450.4667288809
 20
-492.7556489121
 10
455.2698072992
 20
-492.1436433253
 10
459.9913503418
 20
-491.3478046017
 10
464.6102704513
 20
-490.3716871502
 10
469.1059384092
 20
-489.2196505481
 10
473.4582754711
 20
-487.8968400707
 10
477.6478430431
 20
-486.4091637107
 10
481.6559294994
 20
-484.7632657919
 10
485.4646337528
 20
-482.9664972938
 10
489.0569452058
 20
-481.0268830208
 10
492.4168197231
 20
-478.953085761
 10
495.5292512897
 20
-476.7543675965
 10
498.3803390305
 20
-474.4405485363
 10
500.9573492957
 20
-472.0219626581
 10
503.2487725318
 20
-469.5094119534
 10
505.2443746863
 20
-466.9141180837
 10
506.9352429157
 20
-464.2476722613
 10
508.3138253919
 20
-461.5219834808
 10
509.373965031
 20
-458.7492253297
 10
510.1109269919
 20
-455.9417816191
 10
510.5214198237
 20
-453.1121910741
 10
510.6036101657
 20
-450.273091333
 10
510.3571309359
 20
-447.4371625045
 10
509.7830829703
 20
-444.6170705351
 10
508.8840301066
 20
-441.8254106401
 10
507.663987733
 20
-439.0746510503
 10
506.1284048551
 20
-436.3770773258
 10
504.2841397586
 20
-433.7447374858
 10
502.1394293792
 20
-431.1893881989
 10
499.7038525141
 20
-428.7224422753
 10
496.9882870408
 20
-426.3549176945
 10
494.004861334
 20
-424.0973883959
 10
490.766900097
 20
-421.9599370534
 10
487.2888648509
 20
-419.9521100436
 10
483.5862893452
 20
-418.0828748093
 10
479.6757101811
 20
-416.3605798089
 10
475.5745929544
 20
-414.7929172298
 10
471.3012542501
 20
-413.3868886337
 10
466.8747798364
 20
-412.1487736857
 10
462.3149394224
 20
-411.0841021077
 10
457.6420983624
 20
-410.1976289813
 10
452.8771266989
 20
-409.4933135109
 10
448.0413059521
 20
-408.9743013401
 10
443.1562340713
 20
-408.6429105035
 10
438.2437289735
 20
-408.5006210728
 10
433.3257310989
 20
-408.5480685473
 10
428.4242054199
 20
-408.785041015
 10
423.56104334
 20
-409.2104800993
 10
418.7579649216
 20
-409.822485686
 10
414.036421879
 20
-410.6183244096
 10
409.4175017695
 20
-411.5944418612
 10
404.9218338116
 20
-412.7464784632
 10
400.5694967497
 20
-414.0692889406
 10
396.3799291778
 20
-415.5569653006
 10
392.3718427215
 20
-417.2028632195
 10
388.563138468
 20
-418.9996317176
 10
384.9708270151
 20
-420.9392459906
  0
ELLIPSE
  5
BB
330
1F
100
AcDbEntity
  8
0
  6
Continuous
 62
     7
370
    25
100
AcDbEllipse
 10
437.0138861104
 20
-312.2692844881
 30
0.0
 11
89.73520830804421
 21
-16.79809142621014
 31
0.0
210
0.0
220
0.0
230
1.0
 40
0.4106849769
 41
0.0767277489784156
 42
3.218320402568243
  0
LWPOLYLINE
  5
BC
330
1F
100
AcDbEntity
  8
0
  6
Continuous
 62
     7
370
    25
100
AcDbPolyline
 90
       43
 70
   128
 43
0.0
 10
433.4358508448
 20
-120.7284528661
 10
436.8796293407
 20
-121.0930239959
 10
440.5430558989
 20
-121.5903191549
 10
444.4127630732
 20
-122.2185237672
 10
448.4746307216
 20
-122.9753455823
 10
452.7138375297
 20
-123.8580230393
 10
457.1149150914
 20
-124.863335344
 10
461.6618043522
 20
-125.9876142208
 10
466.3379142062
 20
-127.226757298
 10
471.1261820355
 20
-128.5762430769
 10
476.0091359703
 20
-130.0311474302
 10
480.9689586411
 20
-131.5861615698
 10
485.9875521928
 20
-133.2356114177
 10
491.0466043219
 20
-134.9734783101
 10
496.1276550957
 20
-136.7934209595
 10
501.212164311
 20
-138.6887985923
 10
506.2815791452
 20
-140.6526951811
 10
511.3174018531
 20
-142.6779446803
 10
516.3012572639
 20
-144.7571571741
 10
521.2149598297
 20
-146.8827458415
 10
526.0405799826
 20
-149.04695464
 10
530.7605095581
 20
-151.2418866065
 10
535.357526045
 20
-153.4595326722
 10
539.8148554287
 20
-155.6918008871
 10
544.1162333976
 20
-157.9305459466
 10
548.2459646899
 20
-160.1675989127
 10
552.1889803642
 20
-162.3947970218
 10
555.9308927837
 20
-164.6040134694
 10
559.4580481158
 20
-166.7871870645
 10
562.7575761533
 20
-168.9363516432
 10
565.8174372762
 20
-171.0436651371
 10
568.626466383
 20
-173.1014381879
 10
571.1744136312
 20
-175.1021622046
 10
573.4519818376
 20
-177.0385367626
 10
575.4508604027
 20
-178.9034962408
 10
577.1637556356
 20
-180.6902356046
 10
578.5844173672
 20
-182.3922352356
 10
579.7076617569
 20
-184.0032847218
 10
580.5293902078
 20
-185.5175055184
 10
581.0466043219
 20
-186.9293723978
 10
581.2574168409
 20
-188.2337336111
 10
581.1610585329
 20
-189.4258296854
 10
580.9813764635
 20
-190.0213471632
  0
LWPOLYLINE
  5
BD
330
1F
100
AcDbEntity
  8
0
  6
Continuous
 62
     7
370
    25
100
AcDbPolyline
 90
       12
 70
   128
 43
0.0
 10
413.1695458396
 20
-124.9122886331
 10
413.3930413043
 20
-124.4323250047
 10
414.1015669133
 20
-123.4773831806
 10
415.1128552642
 20
-122.6464651178
 10
416.4232162754
 20
-121.9426027461
 10
418.0278685816
 20
-121.368364383
 10
419.9209569807
 20
-120.925845362
 10
422.0955737984
 20
-120.6166603871
 10
424.5437840937
 20
-120.4419376407
 10
427.2566546128
 20
-120.4023146671
 10
430.2242863853
 20
-120.4979360462
 10
433.4358508448
 20
-120.7284528661
  0
ENDSEC
  0
SECTION
  2
OBJECTS
  0
DICTIONARY
  5
C
330
0
100
AcDbDictionary
281
     1
  3
ACAD_GROUP
350
D
  3
ACAD_LAYOUT
350
1A
  3
ACAD_MLINESTYLE
350
17
  3
ACAD_PLOTSETTINGS
350
19
  3
ACAD_PLOTSTYLENAME
350
E
  3
ACAD_SCALELIST
350
47
  3
DWGPROPS
350
BE
  0
DICTIONARY
  5
D
102
{ACAD_REACTORS
330
C
102
}
330
C
100
AcDbDictionary
281
     1
  0
DICTIONARY
  5
1A
102
{ACAD_REACTORS
330
C
102
}
330
C
100
AcDbDictionary
281
     1
  3
Layout1
350
1E
  3
Layout2
350
26
  3
Model
350
22
  0
DICTIONARY
  5
17
102
{ACAD_REACTORS
330
C
102
}
330
C
100
AcDbDictionary
281
     1
  3
Standard
350
18
  0
DICTIONARY
  5
19
102
{ACAD_REACTORS
330
C
102
}
330
C
100
AcDbDictionary
281
     1
  0
ACDBDICTIONARYWDFLT
  5
E
102
{ACAD_REACTORS
330
C
102
}
330
C
100
AcDbDictionary
281
     1
  3
Normal
350
F
100
AcDbDictionaryWithDefault
340
F
  0
DICTIONARY
  5
47
102
{ACAD_REACTORS
330
C
102
}
330
C
100
AcDbDictionary
281
     1
  3
A0
350
48
  3
A1
350
49
  3
A2
350
4A
  3
A3
350
4B
  3
A4
350
4C
  3
A5
350
4D
  3
A6
350
4E
  3
A7
350
4F
  3
A8
350
50
  3
A9
350
51
  3
B0
350
52
  3
B1
350
53
  3
B2
350
54
  3
B3
350
55
  3
B4
350
56
  3
B5
350
57
  3
B6
350
58
  3
B7
350
59
  3
B8
350
5A
  3
B9
350
5B
  3
C0
350
5C
  3
C1
350
5D
  3
C2
350
5E
  3
C3
350
5F
  3
C4
350
60
  3
C5
350
61
  3
C6
350
62
  3
C7
350
63
  3
C8
350
64
  3
C9
350
65
  3
D0
350
66
  3
D1
350
67
  3
D2
350
68
  0
XRECORD
  5
BE
102
{ACAD_REACTORS
330
C
102
}
330
C
100
AcDbXrecord
280
     1
  1
DWGPROPS COOKIE
  2

  3

  4

  6

  7

  8
b.kav
  9

300
=
301
=
302
=
303
=
304
=
305
=
306
=
307
=
308
=
309
=
 40
0.0
 41
2460682.394570868
 42
2460682.39457103
  1

 90
        0
  0
LAYOUT
  5
1E
102
{ACAD_REACTORS
330
1A
102
}
330
1A
100
AcDbPlotSettings
  1

  2
none_device
  4

  6

 40
0.0
 41
0.0
 42
0.0
 43
0.0
 44
0.0
 45
0.0
 46
0.0
 47
0.0
 48
0.0
 49
0.0
140
0.0
141
0.0
142
1.0
143
1.0
 70
   688
 72
     1
 73
     0
 74
     5
  7

 75
    16
147
1.0
148
0.0
149
0.0
100
AcDbLayout
  1
Layout1
 70
     1
 71
     1
 10
0.0
 20
0.0
 11
420.0
 21
297.0
 12
0.0
 22
0.0
 32
0.0
 14
1.0000000000E+20
 24
1.0000000000E+20
 34
1.0000000000E+20
 15
-1.0000000000E+20
 25
-1.0000000000E+20
 35
-1.0000000000E+20
146
0.0
 13
0.0
 23
0.0
 33
0.0
 16
1.0
 26
0.0
 36
0.0
 17
0.0
 27
1.0
 37
0.0
 76
     0
330
1B
  0
LAYOUT
  5
26
102
{ACAD_REACTORS
330
1A
102
}
330
1A
100
AcDbPlotSettings
  1

  2
none_device
  4

  6

 40
0.0
 41
0.0
 42
0.0
 43
0.0
 44
0.0
 45
0.0
 46
0.0
 47
0.0
 48
0.0
 49
0.0
140
0.0
141
0.0
142
1.0
143
1.0
 70
   688
 72
     1
 73
     0
 74
     5
  7

 75
    16
147
1.0
148
0.0
149
0.0
100
AcDbLayout
  1
Layout2
 70
     1
 71
     2
 10
0.0
 20
0.0
 11
0.0
 21
0.0
 12
0.0
 22
0.0
 32
0.0
 14
0.0
 24
0.0
 34
0.0
 15
0.0
 25
0.0
 35
0.0
146
0.0
 13
0.0
 23
0.0
 33
0.0
 16
1.0
 26
0.0
 36
0.0
 17
0.0
 27
1.0
 37
0.0
 76
     0
330
23
  0
LAYOUT
  5
22
102
{ACAD_REACTORS
330
1A
102
}
330
1A
100
AcDbPlotSettings
  1

  2
none_device
  4
Letter_(8.50_x_11.00_Inches)
  6

 40
6.35
 41
6.35
 42
6.35000508
 43
6.35000508
 44
215.9
 45
279.4
 46
0.0
 47
0.0
 48
0.0
 49
0.0
140
0.0
141
0.0
142
1.0
143
1.0
 70
  1712
 72
     1
 73
     0
 74
     0
  7

 75
     0
147
1.0
148
0.0
149
0.0
100
AcDbLayout
  1
Model
 70
     1
 71
     0
 10
0.0
 20
0.0
 11
279.4
 21
215.9
 12
0.0
 22
0.0
 32
0.0
 14
0.0
 24
0.0
 34
0.0
 15
279.4
 25
215.9
 35
0.0
146
0.0
 13
0.0
 23
0.0
 33
0.0
 16
1.0
 26
0.0
 36
0.0
 17
0.0
 27
1.0
 37
0.0
 76
     0
330
1F
331
29
  0
MLINESTYLE
  5
18
102
{ACAD_REACTORS
330
17
102
}
330
17
100
AcDbMlineStyle
  2
Standard
 70
     0
  3

 62
   256
 51
90.0
 52
90.0
 71
     2
 49
0.5
 62
   256
  6
BYLAYER
 49
-0.5
 62
   256
  6
BYLAYER
  0
ACDBPLACEHOLDER
  5
F
102
{ACAD_REACTORS
330
E
102
}
330
E
  0
SCALE
  5
48
102
{ACAD_REACTORS
330
47
102
}
330
47
100
AcDbScale
 70
     0
300
1:1
140
1.0
141
1.0
290
     1
  0
SCALE
  5
49
102
{ACAD_REACTORS
330
47
102
}
330
47
100
AcDbScale
 70
     0
300
1:2
140
1.0
141
2.0
290
     0
  0
SCALE
  5
4A
102
{ACAD_REACTORS
330
47
102
}
330
47
100
AcDbScale
 70
     0
300
1:4
140
1.0
141
4.0
290
     0
  0
SCALE
  5
4B
102
{ACAD_REACTORS
330
47
102
}
330
47
100
AcDbScale
 70
     0
300
1:5
140
1.0
141
5.0
290
     0
  0
SCALE
  5
4C
102
{ACAD_REACTORS
330
47
102
}
330
47
100
AcDbScale
 70
     0
300
1:8
140
1.0
141
8.0
290
     0
  0
SCALE
  5
4D
102
{ACAD_REACTORS
330
47
102
}
330
47
100
AcDbScale
 70
     0
300
1:10
140
1.0
141
10.0
290
     0
  0
SCALE
  5
4E
102
{ACAD_REACTORS
330
47
102
}
330
47
100
AcDbScale
 70
     0
300
1:16
140
1.0
141
16.0
290
     0
  0
SCALE
  5
4F
102
{ACAD_REACTORS
330
47
102
}
330
47
100
AcDbScale
 70
     0
300
1:20
140
1.0
141
20.0
290
     0
  0
SCALE
  5
50
102
{ACAD_REACTORS
330
47
102
}
330
47
100
AcDbScale
 70
     0
300
1:30
140
1.0
141
30.0
290
     0
  0
SCALE
  5
51
102
{ACAD_REACTORS
330
47
102
}
330
47
100
AcDbScale
 70
     0
300
1:40
140
1.0
141
40.0
290
     0
  0
SCALE
  5
52
102
{ACAD_REACTORS
330
47
102
}
330
47
100
AcDbScale
 70
     0
300
1:50
140
1.0
141
50.0
290
     0
  0
SCALE
  5
53
102
{ACAD_REACTORS
330
47
102
}
330
47
100
AcDbScale
 70
     0
300
1:100
140
1.0
141
100.0
290
     0
  0
SCALE
  5
54
102
{ACAD_REACTORS
330
47
102
}
330
47
100
AcDbScale
 70
     0
300
2:1
140
2.0
141
1.0
290
     0
  0
SCALE
  5
55
102
{ACAD_REACTORS
330
47
102
}
330
47
100
AcDbScale
 70
     0
300
4:1
140
4.0
141
1.0
290
     0
  0
SCALE
  5
56
102
{ACAD_REACTORS
330
47
102
}
330
47
100
AcDbScale
 70
     0
300
8:1
140
8.0
141
1.0
290
     0
  0
SCALE
  5
57
102
{ACAD_REACTORS
330
47
102
}
330
47
100
AcDbScale
 70
     0
300
10:1
140
10.0
141
1.0
290
     0
  0
SCALE
  5
58
102
{ACAD_REACTORS
330
47
102
}
330
47
100
AcDbScale
 70
     0
300
100:1
140
100.0
141
1.0
290
     0
  0
SCALE
  5
59
102
{ACAD_REACTORS
330
47
102
}
330
47
100
AcDbScale
 70
     0
300
1/128" = 1'-0"
140
0.0078125
141
12.0
290
     0
  0
SCALE
  5
5A
102
{ACAD_REACTORS
330
47
102
}
330
47
100
AcDbScale
 70
     0
300
1/64" = 1'-0"
140
0.015625
141
12.0
290
     0
  0
SCALE
  5
5B
102
{ACAD_REACTORS
330
47
102
}
330
47
100
AcDbScale
 70
     0
300
1/32" = 1'-0"
140
0.03125
141
12.0
290
     0
  0
SCALE
  5
5C
102
{ACAD_REACTORS
330
47
102
}
330
47
100
AcDbScale
 70
     0
300
1/16" = 1'-0"
140
0.0625
141
12.0
290
     0
  0
SCALE
  5
5D
102
{ACAD_REACTORS
330
47
102
}
330
47
100
AcDbScale
 70
     0
300
3/32" = 1'-0"
140
0.09375
141
12.0
290
     0
  0
SCALE
  5
5E
102
{ACAD_REACTORS
330
47
102
}
330
47
100
AcDbScale
 70
     0
300
1/8" = 1'-0"
140
0.125
141
12.0
290
     0
  0
SCALE
  5
5F
102
{ACAD_REACTORS
330
47
102
}
330
47
100
AcDbScale
 70
     0
300
3/16" = 1'-0"
140
0.1875
141
12.0
290
     0
  0
SCALE
  5
60
102
{ACAD_REACTORS
330
47
102
}
330
47
100
AcDbScale
 70
     0
300
1/4" = 1'-0"
140
0.25
141
12.0
290
     0
  0
SCALE
  5
61
102
{ACAD_REACTORS
330
47
102
}
330
47
100
AcDbScale
 70
     0
300
3/8" = 1'-0"
140
0.375
141
12.0
290
     0
  0
SCALE
  5
62
102
{ACAD_REACTORS
330
47
102
}
330
47
100
AcDbScale
 70
     0
300
1/2" = 1'-0"
140
0.5
141
12.0
290
     0
  0
SCALE
  5
63
102
{ACAD_REACTORS
330
47
102
}
330
47
100
AcDbScale
 70
     0
300
3/4" = 1'-0"
140
0.75
141
12.0
290
     0
  0
SCALE
  5
64
102
{ACAD_REACTORS
330
47
102
}
330
47
100
AcDbScale
 70
     0
300
1" = 1'-0"
140
1.0
141
12.0
290
     0
  0
SCALE
  5
65
102
{ACAD_REACTORS
330
47
102
}
330
47
100
AcDbScale
 70
     0
300
1-1/2" = 1'-0"
140
1.5
141
12.0
290
     0
  0
SCALE
  5
66
102
{ACAD_REACTORS
330
47
102
}
330
47
100
AcDbScale
 70
     0
300
3" = 1'-0"
140
3.0
141
12.0
290
     0
  0
SCALE
  5
67
102
{ACAD_REACTORS
330
47
102
}
330
47
100
AcDbScale
 70
     0
300
6" = 1'-0"
140
6.0
141
12.0
290
     0
  0
SCALE
  5
68
102
{ACAD_REACTORS
330
47
102
}
330
47
100
AcDbScale
 70
     0
300
1'-0" = 1'-0"
140
12.0
141
12.0
290
     0
  0
ENDSEC
  0
EOF
